le jour se leve encore

Publié le par gda

Le jour se leve encore
Jean_Louis Aubert

Intro :


E||--3----------------------|--0----------------------|
B||--0----------------------|--0----------------------|
G||--0----------------------|--0----------------------|
D||--2----------------------|--7----------------------|
A||-------------------------|--9----------------------|
E||-------0--0--0--0--0--0--|-------0--0--0--0--0--0--|




--0-----------------------|--0----------------------|--0----------------------|
--0-----------------------|--0----------------------|--0----------------------|
--0-----------------------|--0----------------------|--0----------------------|
--9-----------------------|--7----------------------|--5----------------------|
--10----------------------|--9----------------------|--7----------------------|
--------0--0--0--0--0--0--|-------0--0--0--0--0--0--|-------0--0--0--0--0--0--|

--0----------------||
--0----------------||
--0----------------||
--4----------------||
--5----------------||
-------------------||



1er & 2eme couplet :
E||-------------------|-------------------|-------------------|
B||--0----------------|--0----------------|-------------------|
G||--0----------------|--0----------------|--2----------------|
D||--5----------------|--4----------------|--2----------------|
A||--7----------------|--5----------------|--4----------------|
E||-------------------|-------------------|-------------------|
Em D* A/C#





-------------------||
--1----------------||
--0----------------||
--2----------------||
--3----------------||
-------------------||
C

Em
Quand tu ne crois plus
D*
Que tout est perdu
A/C#
Quand trompé
C
Déçu, meurtri

Em
Quand assis par terre
D*
Plus rien pouvoir faire
A/C# C
Tout seul, dans ton désert


(accords normaux ici ! on balaie bien les accords)
Em
Quand mal, trop mal
G Am C
On marche à genoux
Em
Quand sourds les hommes
G
N'entendent plus
Am C
Le cri des hommes

G
N'oublie pas
C G
L'aube revient quand même

Même pâle
C G
Le jour se lève encore

Même si
C Em
Tu ne crois plus à l'aurore
Tu verras
C G
Le jour se lève encore...hey
C G C
Le jour se lève encore


Em
Quand la terre
G
Saigne ses blessures
Am C
Sous l'avion qui crache la mort
Em
Quand l'homme - chacal
G
Tire à bout portant
Am
Sur l'enfant qui rêve
C
Ou qui dort

Em
Quand mal Trop mal
G
Tu voudrais larguer
Am
Larguer...
C
Tout larguer...
Em
Quand la folie des hommes
G
Nous mène à l'horreur
Am C
Nous mène au dégoût

G
N'oublie pas
C Em
L'aube revient quand même
C
Et même pâle
G
Le jour se lève encore
Etonné,
C Em
On reprend le corps à corps
Allons-y !!!
C G
Le jour se lève encore
C G
Tu verras le jour se lève encore


Em7 (ettouffé et répété) Sur ces accords bien faire resortir la corde de B
Suivons les rivières pour cela il vous faudra jouer aux doigts et non au
A (ettouffé et repété) médiator !! Cela fait resortir la ligne D-C#-C...
Gardons les torrents
C (étouffé & répété)
Restons en colère
G
Soyons vigilants
Em
Même si
A
Tout semble fini
C
N'oublions jamais
Qu'au bout d'une nuit
Cm
Qu'au bout de la nuit
Au bout de la nuit

(Doucement !!!)

G
Doucement...
C Em
L'aube revient quand même,
Même pâle
C G
Le jour se lève encore !
Tu verras,
Etonné,
C Em
On reprend le corps à corps !

Allons-y maintenant... (reprendre plus fort & + vite)
C G
Le soleil se lève encore
C
Tu verras
G
Le jour se lève encore
C
Tu verras
G
Le jour se lève encore
C
Même si
Em
Tu ne crois plus à l'aurore
C
Tu verras !
G
Le jour se lève encore hey !
C G
Le jour se lève encore hey !
C G
Le jour se lève encore



(de + en + vite)
C G C G C G C G(finir sur G en balayant fortement !)
Encore Encore Encore Encore Encore Encore....
...
Pour être informé des derniers articles, inscrivez vous :

Commenter cet article